  0
SECTION
  2
HEADER
  9
$ACADVER
  1
AC1015
  9
$ACADMAINTVER
 70
     6
  9
$DWGCODEPAGE
  3
ANSI_1254
  9
$INSBASE
 10
0.0
 20
0.0
 30
0.0
  9
$EXTMIN
 10
0.0
 20
0.0
 30
0.0
  9
$EXTMAX
 10
279.4
 20
215.9
 30
0.0
  9
$LIMMIN
 10
0.0
 20
0.0
  9
$LIMMAX
 10
279.4
 20
215.9
  9
$ORTHOMODE
 70
     0
  9
$REGENMODE
 70
     1
  9
$FILLMODE
 70
     1
  9
$QTEXTMODE
 70
     0
  9
$MIRRTEXT
 70
     1
  9
$LTSCALE
 40
1.0
  9
$ATTMODE
 70
     1
  9
$TEXTSIZE
 40
3.5
  9
$TRACEWID
 40
1.0
  9
$TEXTSTYLE
  7
Standard
  9
$CLAYER
  8
0
  9
$CELTYPE
  6
ByLayer
  9
$CECOLOR
 62
   256
  9
$CELTSCALE
 40
1.0
  9
$DISPSILH
 70
     0
  9
$DIMSCALE
 40
1.0
  9
$DIMASZ
 40
3.5
  9
$DIMEXO
 40
1.0
  9
$DIMDLI
 40
3.75
  9
$DIMRND
 40
0.0
  9
$DIMDLE
 40
0.0
  9
$DIMEXE
 40
1.0
  9
$DIMTP
 40
0.0
  9
$DIMTM
 40
0.0
  9
$DIMTXT
 40
3.5
  9
$DIMCEN
 40
2.5
  9
$DIMTSZ
 40
0.0
  9
$DIMTOL
 70
     0
  9
$DIMLIM
 70
     0
  9
$DIMTIH
 70
     1
  9
$DIMTOH
 70
     1
  9
$DIMSE1
 70
     0
  9
$DIMSE2
 70
     0
  9
$DIMTAD
 70
     1
  9
$DIMZIN
 70
     0
  9
$DIMBLK
  1

  9
$DIMASO
 70
     1
  9
$DIMSHO
 70
     1
  9
$DIMPOST
  1

  9
$DIMAPOST
  1

  9
$DIMALT
 70
     0
  9
$DIMALTD
 70
     3
  9
$DIMALTF
 40
0.0393700787
  9
$DIMLFAC
 40
1.0
  9
$DIMTOFL
 70
     1
  9
$DIMTVP
 40
0.0
  9
$DIMTIX
 70
     0
  9
$DIMSOXD
 70
     0
  9
$DIMSAH
 70
     0
  9
$DIMBLK1
  1

  9
$DIMBLK2
  1

  9
$DIMSTYLE
  2
ISO-25
  9
$DIMCLRD
 70
     0
  9
$DIMCLRE
 70
     0
  9
$DIMCLRT
 70
     0
  9
$DIMTFAC
 40
1.0
  9
$DIMGAP
 40
1.524
  9
$DIMJUST
 70
     0
  9
$DIMSD1
 70
     0
  9
$DIMSD2
 70
     0
  9
$DIMTOLJ
 70
     0
  9
$DIMTZIN
 70
     0
  9
$DIMALTZ
 70
     0
  9
$DIMALTTZ
 70
     0
  9
$DIMUPT
 70
     0
  9
$DIMDEC
 70
     2
  9
$DIMTDEC
 70
     2
  9
$DIMALTU
 70
     2
  9
$DIMALTTD
 70
     3
  9
$DIMTXSTY
  7
Standard
  9
$DIMAUNIT
 70
     0
  9
$DIMADEC
 70
     2
  9
$DIMALTRND
 40
0.0
  9
$DIMAZIN
 70
     0
  9
$DIMDSEP
 70
    44
  9
$DIMATFIT
 70
     3
  9
$DIMFRAC
 70
     0
  9
$DIMLDRBLK
  1

  9
$DIMLUNIT
 70
     2
  9
$DIMLWD
 70
    -2
  9
$DIMLWE
 70
    -2
  9
$DIMTMOVE
 70
     0
  9
$LUNITS
 70
     2
  9
$LUPREC
 70
     2
  9
$SKETCHINC
 40
1.0
  9
$FILLETRAD
 40
10.0
  9
$AUNITS
 70
     0
  9
$AUPREC
 70
     2
  9
$MENU
  1
.
  9
$ELEVATION
 40
0.0
  9
$PELEVATION
 40
0.0
  9
$THICKNESS
 40
0.0
  9
$LIMCHECK
 70
     0
  9
$CHAMFERA
 40
0.0
  9
$CHAMFERB
 40
0.0
  9
$CHAMFERC
 40
0.0
  9
$CHAMFERD
 40
0.0
  9
$SKPOLY
 70
     0
  9
$TDCREATE
 40
2459935.699317951
  9
$TDUCREATE
 40
2459935.574317951
  9
$TDUPDATE
 40
2459935.699318125
  9
$TDUUPDATE
 40
2459935.574318125
  9
$TDINDWG
 40
0.0000000116
  9
$TDUSRTIMER
 40
0.0000000116
  9
$USRTIMER
 70
     1
  9
$ANGBASE
 50
0.0
  9
$ANGDIR
 70
     0
  9
$PDMODE
 70
     0
  9
$PDSIZE
 40
-1.0
  9
$PLINEWID
 40
0.0
  9
$SPLFRAME
 70
     0
  9
$SPLINETYPE
 70
     6
  9
$SPLINESEGS
 70
     8
  9
$HANDSEED
  5
ED
  9
$SURFTAB1
 70
     6
  9
$SURFTAB2
 70
     6
  9
$SURFTYPE
 70
     6
  9
$SURFU
 70
     6
  9
$SURFV
 70
     6
  9
$UCSBASE
  2

  9
$UCSNAME
  2

  9
$UCSORG
 10
0.0
 20
0.0
 30
0.0
  9
$UCSXDIR
 10
1.0
 20
0.0
 30
0.0
  9
$UCSYDIR
 10
0.0
 20
1.0
 30
0.0
  9
$UCSORTHOREF
  2

  9
$UCSORTHOVIEW
 70
     0
  9
$UCSORGTOP
 10
0.0
 20
0.0
 30
0.0
  9
$UCSORGBOTTOM
 10
0.0
 20
0.0
 30
0.0
  9
$UCSORGLEFT
 10
0.0
 20
0.0
 30
0.0
  9
$UCSORGRIGHT
 10
0.0
 20
0.0
 30
0.0
  9
$UCSORGFRONT
 10
0.0
 20
0.0
 30
0.0
  9
$UCSORGBACK
 10
0.0
 20
0.0
 30
0.0
  9
$PUCSBASE
  2

  9
$PUCSNAME
  2

  9
$PUCSORG
 10
0.0
 20
0.0
 30
0.0
  9
$PUCSXDIR
 10
1.0
 20
0.0
 30
0.0
  9
$PUCSYDIR
 10
0.0
 20
1.0
 30
0.0
  9
$PUCSORTHOREF
  2

  9
$PUCSORTHOVIEW
 70
     0
  9
$PUCSORGTOP
 10
0.0
 20
0.0
 30
0.0
  9
$PUCSORGBOTTOM
 10
0.0
 20
0.0
 30
0.0
  9
$PUCSORGLEFT
 10
0.0
 20
0.0
 30
0.0
  9
$PUCSORGRIGHT
 10
0.0
 20
0.0
 30
0.0
  9
$PUCSORGFRONT
 10
0.0
 20
0.0
 30
0.0
  9
$PUCSORGBACK
 10
0.0
 20
0.0
 30
0.0
  9
$USERI1
 70
     0
  9
$USERI2
 70
     0
  9
$USERI3
 70
     0
  9
$USERI4
 70
     0
  9
$USERI5
 70
     0
  9
$USERR1
 40
0.0
  9
$USERR2
 40
0.0
  9
$USERR3
 40
0.0
  9
$USERR4
 40
0.0
  9
$USERR5
 40
0.0
  9
$WORLDVIEW
 70
     1
  9
$SHADEDGE
 70
     3
  9
$SHADEDIF
 70
    70
  9
$TILEMODE
 70
     1
  9
$MAXACTVP
 70
    64
  9
$PINSBASE
 10
0.0
 20
0.0
 30
0.0
  9
$PLIMCHECK
 70
     0
  9
$PEXTMIN
 10
1.0000000000E+20
 20
1.0000000000E+20
 30
1.0000000000E+20
  9
$PEXTMAX
 10
-1.0000000000E+20
 20
-1.0000000000E+20
 30
-1.0000000000E+20
  9
$PLIMMIN
 10
0.0
 20
0.0
  9
$PLIMMAX
 10
420.0
 20
297.0
  9
$UNITMODE
 70
     0
  9
$VISRETAIN
 70
     1
  9
$PLINEGEN
 70
     0
  9
$PSLTSCALE
 70
     1
  9
$TREEDEPTH
 70
  3020
  9
$CMLSTYLE
  2
Standard
  9
$CMLJUST
 70
     0
  9
$CMLSCALE
 40
20.0
  9
$PROXYGRAPHICS
 70
     1
  9
$MEASUREMENT
 70
     1
  9
$CELWEIGHT
370
    -1
  9
$ENDCAPS
280
     0
  9
$JOINSTYLE
280
     0
  9
$LWDISPLAY
290
     1
  9
$INSUNITS
 70
     4
  9
$HYPERLINKBASE
  1

  9
$STYLESHEET
  1

  9
$XEDIT
290
     1
  9
$CEPSNTYPE
380
     0
  9
$PSTYLEMODE
290
     1
  9
$FINGERPRINTGUID
  2
{6cec10ef-4565-4a5f-9532-673a6932c928}
  9
$VERSIONGUID
  2
{FAEB1C32-E019-11D5-929B-00C0DF256EC4}
  9
$EXTNAMES
290
     1
  9
$PSVPSCALE
 40
0.0
  9
$OLESTARTUP
290
     0
  0
ENDSEC
  0
SECTION
  2
CLASSES
  0
CLASS
  1
ACDBDICTIONARYWDFLT
  2
AcDbDictionaryWithDefault
  3
ObjectDBX Classes
 90
        0
280
     0
281
     0
  0
CLASS
  1
VISUALSTYLE
  2
AcDbVisualStyle
  3
ObjectDBX Classes
 90
     4095
280
     0
281
     0
  0
CLASS
  1
MATERIAL
  2
AcDbMaterial
  3
ObjectDBX Classes
 90
     1153
280
     0
281
     0
  0
CLASS
  1
SCALE
  2
AcDbScale
  3
ObjectDBX Classes
 90
     1153
280
     0
281
     0
  0
CLASS
  1
TABLESTYLE
  2
AcDbTableStyle
  3
ObjectDBX Classes
 90
     4095
280
     0
281
     0
  0
CLASS
  1
MLEADERSTYLE
  2
AcDbMLeaderStyle
  3
ACDB_MLEADERSTYLE_CLASS
 90
     4095
280
     0
281
     0
  0
CLASS
  1
SUN
  2
AcDbSun
  3
SCENEOE
 90
     1153
280
     0
281
     0
  0
CLASS
  1
ACDBPLACEHOLDER
  2
AcDbPlaceHolder
  3
ObjectDBX Classes
 90
        0
280
     0
281
     0
  0
CLASS
  1
LAYOUT
  2
AcDbLayout
  3
ObjectDBX Classes
 90
        0
280
     0
281
     0
  0
ENDSEC
  0
SECTION
  2
TABLES
  0
TABLE
  2
VPORT
  5
8
330
0
100
AcDbSymbolTable
 70
     1
  0
VPORT
  5
29
330
8
100
AcDbSymbolTableRecord
100
AcDbViewportTableRecord
  2
*Active
 70
     0
 10
0.0
 20
0.0
 11
1.0
 21
1.0
 12
139.7
 22
107.95
 13
0.0
 23
0.0
 14
10.0
 24
10.0
 15
10.0
 25
10.0
 16
0.0
 26
0.0
 36
1.0
 17
0.0
 27
0.0
 37
0.0
 40
215.9
 41
1.2941176471
 42
50.0
 43
0.0
 44
0.0
 50
0.0
 51
0.0
 71
     0
 72
  2000
 73
     1
 74
     3
 75
     0
 76
     0
 77
     0
 78
     0
281
     0
 65
     1
110
0.0
120
0.0
130
0.0
111
1.0
121
0.0
131
0.0
112
0.0
122
1.0
132
0.0
 79
     0
146
0.0
  0
ENDTAB
  0
TABLE
  2
LTYPE
  5
5
330
0
100
AcDbSymbolTable
 70
     6
  0
LTYPE
  5
14
330
5
100
AcDbSymbolTableRecord
100
AcDbLinetypeTableRecord
  2
ByBlock
 70
     0
  3

 72
    65
 73
     0
 40
0.0
  0
LTYPE
  5
15
330
5
100
AcDbSymbolTableRecord
100
AcDbLinetypeTableRecord
  2
ByLayer
 70
     0
  3

 72
    65
 73
     0
 40
0.0
  0
LTYPE
  5
16
330
5
100
AcDbSymbolTableRecord
100
AcDbLinetypeTableRecord
  2
Continuous
 70
     0
  3
Solid line
 72
    65
 73
     0
 40
0.0
  0
LTYPE
  5
6E
330
5
100
AcDbSymbolTableRecord
100
AcDbLinetypeTableRecord
  2
HIDDEN
 70
     0
  3
Hidden __ __ __ __ __ __ __ __ __ __ __ __ __ __
 72
    65
 73
     2
 40
1.905
 49
1.27
 74
     0
 49
-0.635
 74
     0
  0
LTYPE
  5
6F
330
5
100
AcDbSymbolTableRecord
100
AcDbLinetypeTableRecord
  2
PHANTOM
 70
     0
  3
Phantom ______  __  __  ______  __  __  ______
 72
    65
 73
     6
 40
12.7
 49
6.35
 74
     0
 49
-1.27
 74
     0
 49
1.27
 74
     0
 49
-1.27
 74
     0
 49
1.27
 74
     0
 49
-1.27
 74
     0
  0
LTYPE
  5
70
330
5
100
AcDbSymbolTableRecord
100
AcDbLinetypeTableRecord
  2
CENTER
 70
     0
  3
Center ____ _ ____ _ ____ _ ____ _ ____ _ ____
 72
    65
 73
     4
 40
10.16
 49
6.35
 74
     0
 49
-1.27
 74
     0
 49
1.27
 74
     0
 49
-1.27
 74
     0
  0
LTYPE
  5
71
330
5
100
AcDbSymbolTableRecord
100
AcDbLinetypeTableRecord
  2
CENTERX2
 70
     0
  3
Center (2x) ________  __  ________  __  _____
 72
    65
 73
     4
 40
20.32
 49
12.7
 74
     0
 49
-2.54
 74
     0
 49
2.54
 74
     0
 49
-2.54
 74
     0
  0
LTYPE
  5
72
330
5
100
AcDbSymbolTableRecord
100
AcDbLinetypeTableRecord
  2
DOT2
 70
     0
  3
Dot (.5x) ........................................
 72
    65
 73
     2
 40
0.635
 49
0.0
 74
     0
 49
-0.635
 74
     0
  0
ENDTAB
  0
TABLE
  2
LAYER
  5
2
330
0
100
AcDbSymbolTable
 70
    17
  0
LAYER
  5
10
330
2
100
AcDbSymbolTableRecord
100
AcDbLayerTableRecord
  2
0
 70
     0
 62
     7
  6
Continuous
370
    -3
390
F
  0
LAYER
  5
73
330
2
100
AcDbSymbolTableRecord
100
AcDbLayerTableRecord
  2
FORMAT
 70
     0
 62
     7
  6
Continuous
370
    -3
390
F
  0
LAYER
  5
74
330
2
100
AcDbSymbolTableRecord
100
AcDbLayerTableRecord
  2
YARDIMCI_GEOMETRI
 70
     0
 62
    -6
  6
Continuous
290
     0
370
    -3
390
F
  0
LAYER
  5
75
330
2
100
AcDbSymbolTableRecord
100
AcDbLayerTableRecord
  2
SAYFA_CERCEVESI
 70
     0
 62
     7
  6
Continuous
370
    25
390
F
  0
LAYER
  5
76
330
2
100
AcDbSymbolTableRecord
100
AcDbLayerTableRecord
  2
ANTET
 70
     0
 62
     7
  6
Continuous
370
    -3
390
F
  0
LAYER
  5
77
330
2
100
AcDbSymbolTableRecord
100
AcDbLayerTableRecord
  2
OLCU
 70
     0
 62
   150
  6
Continuous
370
    -3
390
F
  0
LAYER
  5
78
330
2
100
AcDbSymbolTableRecord
100
AcDbLayerTableRecord
  2
METIN
 70
     0
 62
    96
  6
Continuous
370
    -3
390
F
  0
LAYER
  5
79
330
2
100
AcDbSymbolTableRecord
100
AcDbLayerTableRecord
  2
BALON
 70
     0
 62
     5
  6
Continuous
370
    -3
390
F
  0
LAYER
  5
7A
330
2
100
AcDbSymbolTableRecord
100
AcDbLayerTableRecord
  2
VURGU
 70
     0
 62
     7
  6
Continuous
370
    -3
390
F
  0
LAYER
  5
7B
330
2
100
AcDbSymbolTableRecord
100
AcDbLayerTableRecord
  2
SILIK
 70
     0
 62
     7
  6
Continuous
370
    -3
390
F
  0
LAYER
  5
7C
330
2
100
AcDbSymbolTableRecord
100
AcDbLayerTableRecord
  2
MODEL
 70
     0
 62
     7
  6
Continuous
370
    -3
390
F
  0
LAYER
  5
7D
330
2
100
AcDbSymbolTableRecord
100
AcDbLayerTableRecord
  2
DETAYLANDıRMA
 70
     0
 62
   190
  6
Continuous
370
    -3
390
F
  0
LAYER
  5
7E
330
2
100
AcDbSymbolTableRecord
100
AcDbLayerTableRecord
  2
TOLERANS
 70
     0
 62
   230
  6
Continuous
370
    -3
390
F
  0
LAYER
  5
7F
330
2
100
AcDbSymbolTableRecord
100
AcDbLayerTableRecord
  2
MERKEZ_CIZGILERI
 70
     0
 62
    30
  6
Continuous
370
    -3
390
F
  0
LAYER
  5
80
330
2
100
AcDbSymbolTableRecord
100
AcDbLayerTableRecord
  2
KESIT-DETAY_CIZGILERI
 70
     0
 62
     7
  6
Continuous
370
    -3
390
F
  0
LAYER
  5
81
330
2
100
AcDbSymbolTableRecord
100
AcDbLayerTableRecord
  2
\U+041E\U+0421\U+0415\U+0412\U+042B\U+0415
 70
     0
 62
     7
  6
Continuous
370
    -3
390
F
  0
LAYER
  5
82
330
2
100
AcDbSymbolTableRecord
100
AcDbLayerTableRecord
  2
\U+0412\U+041E\U+0414\U+042F\U+041D\U+042B\U+0415_\U+0417\U+041D\U+0410\U+041A\U+0418
 70
     0
 62
    11
  6
Continuous
370
    -3
390
F
  0
ENDTAB
  0
TABLE
  2
STYLE
  5
3
330
0
100
AcDbSymbolTable
 70
     1
  0
STYLE
  5
11
330
3
100
AcDbSymbolTableRecord
100
AcDbTextStyleTableRecord
  2
Standard
 70
     0
 40
0.0
 41
1.0
 50
0.0
 71
     0
 42
3.5
  3
txt
  4

  0
ENDTAB
  0
TABLE
  2
VIEW
  5
6
330
0
100
AcDbSymbolTable
 70
     0
  0
ENDTAB
  0
TABLE
  2
UCS
  5
7
330
0
100
AcDbSymbolTable
 70
     0
  0
ENDTAB
  0
TABLE
  2
APPID
  5
9
330
0
100
AcDbSymbolTable
 70
     1
  0
APPID
  5
12
330
9
100
AcDbSymbolTableRecord
100
AcDbRegAppTableRecord
  2
ACAD
 70
     0
  0
ENDTAB
  0
TABLE
  2
DIMSTYLE
  5
A
330
0
100
AcDbSymbolTable
 70
     1
100
AcDbDimStyleTable
  0
DIMSTYLE
105
27
330
A
100
AcDbSymbolTableRecord
100
AcDbDimStyleTableRecord
  2
ISO-25
 70
     0
 41
2.5
 42
0.625
 43
3.75
 44
1.25
 73
     0
 74
     0
 77
     1
 78
     8
140
2.5
141
2.5
143
0.0393700787
147
0.625
171
     3
172
     1
178
     0
271
     2
272
     2
274
     3
278
    44
283
     0
284
     8
340
11
  0
ENDTAB
  0
TABLE
  2
BLOCK_RECORD
  5
1
330
0
100
AcDbSymbolTable
 70
     5
  0
BLOCK_RECORD
  5
1F
330
1
100
AcDbSymbolTableRecord
100
AcDbBlockTableRecord
  2
*Model_Space
340
22
  0
BLOCK_RECORD
  5
1B
330
1
100
AcDbSymbolTableRecord
100
AcDbBlockTableRecord
  2
*Paper_Space
340
1E
  0
BLOCK_RECORD
  5
23
330
1
100
AcDbSymbolTableRecord
100
AcDbBlockTableRecord
  2
*Paper_Space0
340
26
  0
BLOCK_RECORD
  5
97
330
1
100
AcDbSymbolTableRecord
100
AcDbBlockTableRecord
  2
SW_CENTERMARKSYMBOL_0
340
0
102
{BLKREFS
331
A2
102
}
  0
BLOCK_RECORD
  5
AC
330
1
100
AcDbSymbolTableRecord
100
AcDbBlockTableRecord
  2
SW_CENTERMARKSYMBOL_1
340
0
102
{BLKREFS
331
B7
102
}
  0
BLOCK_RECORD
  5
BF
330
1
100
AcDbSymbolTableRecord
100
AcDbBlockTableRecord
  2
SW_CENTERMARKSYMBOL_2
340
0
102
{BLKREFS
331
CA
102
}
  0
BLOCK_RECORD
  5
D2
330
1
100
AcDbSymbolTableRecord
100
AcDbBlockTableRecord
  2
SW_CENTERMARKSYMBOL_3
340
0
102
{BLKREFS
331
DD
102
}
  0
ENDTAB
  0
ENDSEC
  0
SECTION
  2
BLOCKS
  0
BLOCK
  5
20
330
1F
100
AcDbEntity
  8
0
100
AcDbBlockBegin
  2
*Model_Space
 70
     0
 10
0.0
 20
0.0
 30
0.0
  3
*Model_Space
  1

  0
ENDBLK
  5
21
330
1F
100
AcDbEntity
  8
0
100
AcDbBlockEnd
  0
BLOCK
  5
1C
330
1B
100
AcDbEntity
 67
     1
  8
0
100
AcDbBlockBegin
  2
*Paper_Space
 70
     0
 10
0.0
 20
0.0
 30
0.0
  3
*Paper_Space
  1

  0
ENDBLK
  5
1D
330
1B
100
AcDbEntity
 67
     1
  8
0
100
AcDbBlockEnd
  0
BLOCK
  5
24
330
23
100
AcDbEntity
  8
0
100
AcDbBlockBegin
  2
*Paper_Space0
 70
     0
 10
0.0
 20
0.0
 30
0.0
  3
*Paper_Space0
  1

  0
ENDBLK
  5
25
330
23
100
AcDbEntity
  8
0
100
AcDbBlockEnd
  0
BLOCK
  5
98
330
97
100
AcDbEntity
  8
0
100
AcDbBlockBegin
  2
SW_CENTERMARKSYMBOL_0
 70
     0
 10
0.0
 20
0.0
 30
0.0
  3
SW_CENTERMARKSYMBOL_0
  1

  0
LINE
  5
9A
330
97
100
AcDbEntity
  8
FORMAT
 62
     0
100
AcDbLine
 10
0.0
 20
0.0
 30
0.0
 11
0.0
 21
2.5
 31
0.0
  0
LINE
  5
9B
330
97
100
AcDbEntity
  8
FORMAT
 62
     0
100
AcDbLine
 10
0.0
 20
0.0
 30
0.0
 11
-2.5
 21
0.0
 31
0.0
  0
LINE
  5
9C
330
97
100
AcDbEntity
  8
FORMAT
 62
     0
100
AcDbLine
 10
0.0
 20
0.0
 30
0.0
 11
0.0
 21
-2.5
 31
0.0
  0
LINE
  5
9D
330
97
100
AcDbEntity
  8
FORMAT
 62
     0
100
AcDbLine
 10
0.0
 20
0.0
 30
0.0
 11
2.5
 21
0.0
 31
0.0
  0
LINE
  5
9E
330
97
100
AcDbEntity
  8
FORMAT
 62
     0
100
AcDbLine
 10
0.0
 20
5.0
 30
0.0
 11
0.0
 21
34.0
 31
0.0
  0
LINE
  5
9F
330
97
100
AcDbEntity
  8
FORMAT
 62
     0
100
AcDbLine
 10
-5.0
 20
0.0
 30
0.0
 11
-34.0
 21
0.0
 31
0.0
  0
LINE
  5
A0
330
97
100
AcDbEntity
  8
FORMAT
 62
     0
100
AcDbLine
 10
0.0
 20
-5.0
 30
0.0
 11
0.0
 21
-34.0
 31
0.0
  0
LINE
  5
A1
330
97
100
AcDbEntity
  8
FORMAT
 62
     0
100
AcDbLine
 10
5.0
 20
0.0
 30
0.0
 11
34.0
 21
0.0
 31
0.0
  0
ENDBLK
  5
99
330
97
100
AcDbEntity
  8
0
100
AcDbBlockEnd
  0
BLOCK
  5
AD
330
AC
100
AcDbEntity
  8
0
100
AcDbBlockBegin
  2
SW_CENTERMARKSYMBOL_1
 70
     0
 10
0.0
 20
0.0
 30
0.0
  3
SW_CENTERMARKSYMBOL_1
  1

  0
LINE
  5
AF
330
AC
100
AcDbEntity
  8
FORMAT
 62
     0
100
AcDbLine
 10
0.0
 20
0.0
 30
0.0
 11
0.0
 21
2.5
 31
0.0
  0
LINE
  5
B0
330
AC
100
AcDbEntity
  8
FORMAT
 62
     0
100
AcDbLine
 10
0.0
 20
0.0
 30
0.0
 11
-2.5
 21
0.0
 31
0.0
  0
LINE
  5
B1
330
AC
100
AcDbEntity
  8
FORMAT
 62
     0
100
AcDbLine
 10
0.0
 20
0.0
 30
0.0
 11
0.0
 21
-2.5
 31
0.0
  0
LINE
  5
B2
330
AC
100
AcDbEntity
  8
FORMAT
 62
     0
100
AcDbLine
 10
0.0
 20
0.0
 30
0.0
 11
2.5
 21
0.0
 31
0.0
  0
LINE
  5
B3
330
AC
100
AcDbEntity
  8
FORMAT
 62
     0
100
AcDbLine
 10
0.0
 20
5.0
 30
0.0
 11
0.0
 21
34.0
 31
0.0
  0
LINE
  5
B4
330
AC
100
AcDbEntity
  8
FORMAT
 62
     0
100
AcDbLine
 10
-5.0
 20
0.0
 30
0.0
 11
-34.0
 21
0.0
 31
0.0
  0
LINE
  5
B5
330
AC
100
AcDbEntity
  8
FORMAT
 62
     0
100
AcDbLine
 10
0.0
 20
-5.0
 30
0.0
 11
0.0
 21
-34.0
 31
0.0
  0
LINE
  5
B6
330
AC
100
AcDbEntity
  8
FORMAT
 62
     0
100
AcDbLine
 10
5.0
 20
0.0
 30
0.0
 11
34.0
 21
0.0
 31
0.0
  0
ENDBLK
  5
AE
330
AC
100
AcDbEntity
  8
0
100
AcDbBlockEnd
  0
BLOCK
  5
C0
330
BF
100
AcDbEntity
  8
0
100
AcDbBlockBegin
  2
SW_CENTERMARKSYMBOL_2
 70
     0
 10
0.0
 20
0.0
 30
0.0
  3
SW_CENTERMARKSYMBOL_2
  1

  0
LINE
  5
C2
330
BF
100
AcDbEntity
  8
FORMAT
 62
     0
100
AcDbLine
 10
0.0
 20
0.0
 30
0.0
 11
0.0
 21
2.5
 31
0.0
  0
LINE
  5
C3
330
BF
100
AcDbEntity
  8
FORMAT
 62
     0
100
AcDbLine
 10
0.0
 20
0.0
 30
0.0
 11
-2.5
 21
0.0
 31
0.0
  0
LINE
  5
C4
330
BF
100
AcDbEntity
  8
FORMAT
 62
     0
100
AcDbLine
 10
0.0
 20
0.0
 30
0.0
 11
0.0
 21
-2.5
 31
0.0
  0
LINE
  5
C5
330
BF
100
AcDbEntity
  8
FORMAT
 62
     0
100
AcDbLine
 10
0.0
 20
0.0
 30
0.0
 11
2.5
 21
0.0
 31
0.0
  0
LINE
  5
C6
330
BF
100
AcDbEntity
  8
FORMAT
 62
     0
100
AcDbLine
 10
0.0
 20
5.0
 30
0.0
 11
0.0
 21
34.0
 31
0.0
  0
LINE
  5
C7
330
BF
100
AcDbEntity
  8
FORMAT
 62
     0
100
AcDbLine
 10
-5.0
 20
0.0
 30
0.0
 11
-34.0
 21
0.0
 31
0.0
  0
LINE
  5
C8
330
BF
100
AcDbEntity
  8
FORMAT
 62
     0
100
AcDbLine
 10
0.0
 20
-5.0
 30
0.0
 11
0.0
 21
-34.0
 31
0.0
  0
LINE
  5
C9
330
BF
100
AcDbEntity
  8
FORMAT
 62
     0
100
AcDbLine
 10
5.0
 20
0.0
 30
0.0
 11
34.0
 21
0.0
 31
0.0
  0
ENDBLK
  5
C1
330
BF
100
AcDbEntity
  8
0
100
AcDbBlockEnd
  0
BLOCK
  5
D3
330
D2
100
AcDbEntity
  8
0
100
AcDbBlockBegin
  2
SW_CENTERMARKSYMBOL_3
 70
     0
 10
0.0
 20
0.0
 30
0.0
  3
SW_CENTERMARKSYMBOL_3
  1

  0
LINE
  5
D5
330
D2
100
AcDbEntity
  8
FORMAT
 62
     0
100
AcDbLine
 10
0.0
 20
0.0
 30
0.0
 11
0.0
 21
2.5
 31
0.0
  0
LINE
  5
D6
330
D2
100
AcDbEntity
  8
FORMAT
 62
     0
100
AcDbLine
 10
0.0
 20
0.0
 30
0.0
 11
-2.5
 21
0.0
 31
0.0
  0
LINE
  5
D7
330
D2
100
AcDbEntity
  8
FORMAT
 62
     0
100
AcDbLine
 10
0.0
 20
0.0
 30
0.0
 11
0.0
 21
-2.5
 31
0.0
  0
LINE
  5
D8
330
D2
100
AcDbEntity
  8
FORMAT
 62
     0
100
AcDbLine
 10
0.0
 20
0.0
 30
0.0
 11
2.5
 21
0.0
 31
0.0
  0
LINE
  5
D9
330
D2
100
AcDbEntity
  8
FORMAT
 62
     0
100
AcDbLine
 10
0.0
 20
5.0
 30
0.0
 11
0.0
 21
34.0
 31
0.0
  0
LINE
  5
DA
330
D2
100
AcDbEntity
  8
FORMAT
 62
     0
100
AcDbLine
 10
-5.0
 20
0.0
 30
0.0
 11
-34.0
 21
0.0
 31
0.0
  0
LINE
  5
DB
330
D2
100
AcDbEntity
  8
FORMAT
 62
     0
100
AcDbLine
 10
0.0
 20
-5.0
 30
0.0
 11
0.0
 21
-34.0
 31
0.0
  0
LINE
  5
DC
330
D2
100
AcDbEntity
  8
FORMAT
 62
     0
100
AcDbLine
 10
5.0
 20
0.0
 30
0.0
 11
34.0
 21
0.0
 31
0.0
  0
ENDBLK
  5
D4
330
D2
100
AcDbEntity
  8
0
100
AcDbBlockEnd
  0
ENDSEC
  0
SECTION
  2
ENTITIES
  0
LINE
  5
83
330
1F
100
AcDbEntity
  8
0
  6
Continuous
 62
     7
370
    25
100
AcDbLine
 10
73.340636957
 20
100.9173419651
 30
0.0
 11
73.340636957
 21
21.4173419651
 31
0.0
  0
LINE
  5
84
330
1F
100
AcDbEntity
  8
0
  6
Continuous
 62
     7
370
    25
100
AcDbLine
 10
136.340636957
 20
21.4173419651
 30
0.0
 11
136.340636957
 21
100.9173419651
 31
0.0
  0
ARC
  5
85
330
1F
100
AcDbEntity
  8
0
  6
Continuous
 62
     7
370
    25
100
AcDbCircle
 10
136.340636957
 20
100.9173419651
 30
0.0
 40
63.0
100
AcDbArc
 50
90.0
 51
180.0
  0
LINE
  5
86
330
1F
100
AcDbEntity
  8
0
  6
Continuous
 62
     7
370
    25
100
AcDbLine
 10
215.840636957
 20
163.9173419651
 30
0.0
 11
136.340636957
 21
163.9173419651
 31
0.0
  0
LINE
  5
87
330
1F
100
AcDbEntity
  8
0
  6
Continuous
 62
     7
370
    25
100
AcDbLine
 10
136.340636957
 20
100.9173419651
 30
0.0
 11
215.840636957
 21
100.9173419651
 31
0.0
  0
LINE
  5
88
330
1F
100
AcDbEntity
  8
0
  6
Continuous
 62
     7
370
    25
100
AcDbLine
 10
104.840636957
 20
21.4173419651
 30
0.0
 11
136.340636957
 21
21.4173419651
 31
0.0
  0
LINE
  5
89
330
1F
100
AcDbEntity
  8
0
  6
Continuous
 62
     7
370
    25
100
AcDbLine
 10
73.340636957
 20
21.4173419651
 30
0.0
 11
104.840636957
 21
21.4173419651
 31
0.0
  0
LINE
  5
8A
330
1F
100
AcDbEntity
  8
0
  6
Continuous
 62
     7
370
    25
100
AcDbLine
 10
215.840636957
 20
132.4173419651
 30
0.0
 11
215.840636957
 21
100.9173419651
 31
0.0
  0
LINE
  5
8B
330
1F
100
AcDbEntity
  8
0
  6
Continuous
 62
     7
370
    25
100
AcDbLine
 10
215.840636957
 20
163.9173419651
 30
0.0
 11
215.840636957
 21
132.4173419651
 31
0.0
  0
LINE
  5
8C
330
1F
100
AcDbEntity
  8
0
  6
Continuous
 62
     1
370
    25
100
AcDbLine
 10
73.340636957
 20
100.9173419651
 30
0.0
 11
136.340636957
 21
100.9173419651
 31
0.0
  0
LINE
  5
8D
330
1F
100
AcDbEntity
  8
0
  6
Continuous
 62
     1
370
    25
100
AcDbLine
 10
136.340636957
 20
163.9173419651
 30
0.0
 11
136.340636957
 21
100.9173419651
 31
0.0
  0
LINE
  5
8E
330
1F
100
AcDbEntity
  8
0
  6
Continuous
 62
     7
370
    25
100
AcDbLine
 10
-94.1015608591
 20
132.4173419651
 30
0.0
 11
-94.1015608591
 21
100.9173419651
 31
0.0
  0
LINE
  5
8F
330
1F
100
AcDbEntity
  8
0
  6
Continuous
 62
     7
370
    25
100
AcDbLine
 10
-31.1015608591
 20
100.9173419651
 30
0.0
 11
-31.1015608591
 21
132.4173419651
 31
0.0
  0
LINE
  5
90
330
1F
100
AcDbEntity
  8
0
  6
Continuous
 62
     7
370
    25
100
AcDbLine
 10
-94.1015608591
 20
100.9173419651
 30
0.0
 11
-94.1015608591
 21
21.4173419651
 31
0.0
  0
LINE
  5
91
330
1F
100
AcDbEntity
  8
0
  6
Continuous
 62
     7
370
    25
100
AcDbLine
 10
-31.1015608591
 20
21.4173419651
 30
0.0
 11
-31.1015608591
 21
100.9173419651
 31
0.0
  0
CIRCLE
  5
92
330
1F
100
AcDbEntity
  8
0
  6
Continuous
 62
     7
370
    25
100
AcDbCircle
 10
-62.6015608591
 20
132.4173419651
 30
0.0
 40
31.49999999999999
  0
CIRCLE
  5
93
330
1F
100
AcDbEntity
  8
0
  6
Continuous
 62
     7
370
    25
100
AcDbCircle
 10
-62.6015608591
 20
132.4173419651
 30
0.0
 40
25.7
  0
LINE
  5
94
330
1F
100
AcDbEntity
  8
0
  6
Continuous
 62
     7
370
    25
100
AcDbLine
 10
-94.1015608591
 20
21.4173419651
 30
0.0
 11
-31.1015608591
 21
21.4173419651
 31
0.0
  0
LINE
  5
95
330
1F
100
AcDbEntity
  8
0
  6
Continuous
 62
     1
370
    25
100
AcDbLine
 10
-62.6015608591
 20
100.9173419651
 30
0.0
 11
-31.1015608591
 21
100.9173419651
 31
0.0
  0
LINE
  5
96
330
1F
100
AcDbEntity
  8
0
  6
Continuous
 62
     1
370
    25
100
AcDbLine
 10
-94.1015608591
 20
100.9173419651
 30
0.0
 11
-62.6015608591
 21
100.9173419651
 31
0.0
  0
INSERT
  5
A2
330
1F
100
AcDbEntity
  8
FORMAT
 62
     7
100
AcDbBlockReference
  2
SW_CENTERMARKSYMBOL_0
 10
-62.6015608591
 20
132.4173419651
 30
0.0
  0
LINE
  5
A3
330
1F
100
AcDbEntity
  8
0
  6
Continuous
 62
     7
370
    25
100
AcDbLine
 10
215.840636957
 20
294.8381603845
 30
0.0
 11
136.340636957
 21
294.8381603845
 31
0.0
  0
LINE
  5
A4
330
1F
100
AcDbEntity
  8
0
  6
Continuous
 62
     7
370
    25
100
AcDbLine
 10
136.340636957
 20
231.8381603845
 30
0.0
 11
215.840636957
 21
231.8381603845
 31
0.0
  0
LINE
  5
A5
330
1F
100
AcDbEntity
  8
0
  6
Continuous
 62
     7
370
    25
100
AcDbLine
 10
136.340636957
 20
294.8381603845
 30
0.0
 11
104.840636957
 21
294.8381603845
 31
0.0
  0
LINE
  5
A6
330
1F
100
AcDbEntity
  8
0
  6
Continuous
 62
     7
370
    25
100
AcDbLine
 10
104.840636957
 20
231.8381603845
 30
0.0
 11
136.340636957
 21
231.8381603845
 31
0.0
  0
CIRCLE
  5
A7
330
1F
100
AcDbEntity
  8
0
  6
Continuous
 62
     7
370
    25
100
AcDbCircle
 10
104.840636957
 20
263.3381603845
 30
0.0
 40
25.70000000000005
  0
CIRCLE
  5
A8
330
1F
100
AcDbEntity
  8
0
  6
Continuous
 62
     7
370
    25
100
AcDbCircle
 10
104.840636957
 20
263.3381603845
 30
0.0
 40
31.50000000000006
  0
LINE
  5
A9
330
1F
100
AcDbEntity
  8
0
  6
Continuous
 62
     7
370
    25
100
AcDbLine
 10
215.840636957
 20
294.8381603845
 30
0.0
 11
215.840636957
 21
231.8381603845
 31
0.0
  0
LINE
  5
AA
330
1F
100
AcDbEntity
  8
0
  6
Continuous
 62
     1
370
    25
100
AcDbLine
 10
136.340636957
 20
263.3381603845
 30
0.0
 11
136.340636957
 21
231.8381603845
 31
0.0
  0
LINE
  5
AB
330
1F
100
AcDbEntity
  8
0
  6
Continuous
 62
     1
370
    25
100
AcDbLine
 10
136.340636957
 20
294.8381603845
 30
0.0
 11
136.340636957
 21
263.3381603845
 31
0.0
  0
INSERT
  5
B7
330
1F
100
AcDbEntity
  8
FORMAT
 62
     7
100
AcDbBlockReference
  2
SW_CENTERMARKSYMBOL_1
 10
104.840636957
 20
263.3381603845
 30
0.0
  0
LINE
  5
B8
330
1F
100
AcDbEntity
  8
0
  6
Continuous
 62
     7
370
    25
100
AcDbLine
 10
288.0077678146
 20
100.9173419651
 30
0.0
 11
288.0077678146
 21
21.4173419651
 31
0.0
  0
LINE
  5
B9
330
1F
100
AcDbEntity
  8
0
  6
Continuous
 62
     7
370
    25
100
AcDbLine
 10
351.0077678146
 20
21.4173419651
 30
0.0
 11
351.0077678146
 21
100.9173419651
 31
0.0
  0
LINE
  5
BA
330
1F
100
AcDbEntity
  8
0
  6
Continuous
 62
     7
370
    25
100
AcDbLine
 10
351.0077678146
 20
100.9173419651
 30
0.0
 11
351.0077678146
 21
132.4173419651
 31
0.0
  0
LINE
  5
BB
330
1F
100
AcDbEntity
  8
0
  6
Continuous
 62
     7
370
    25
100
AcDbLine
 10
288.0077678146
 20
132.4173419651
 30
0.0
 11
288.0077678146
 21
100.9173419651
 31
0.0
  0
LINE
  5
BC
330
1F
100
AcDbEntity
  8
0
  6
Continuous
 62
     7
370
    25
100
AcDbLine
 10
288.0077678146
 20
21.4173419651
 30
0.0
 11
351.0077678146
 21
21.4173419651
 31
0.0
  0
ARC
  5
BD
330
1F
100
AcDbEntity
  8
0
  6
Continuous
 62
     7
370
    25
100
AcDbCircle
 10
319.5077678146
 20
132.4173419651
 30
0.0
 40
31.49999999999994
100
AcDbArc
 50
0.0
 51
180.0
  0
LINE
  5
BE
330
1F
100
AcDbEntity
  8
0
  6
Continuous
 62
     1
370
    25
100
AcDbLine
 10
288.0077678146
 20
100.9173419651
 30
0.0
 11
351.0077678146
 21
100.9173419651
 31
0.0
  0
INSERT
  5
CA
330
1F
100
AcDbEntity
  8
FORMAT
 62
     7
100
AcDbBlockReference
  2
SW_CENTERMARKSYMBOL_2
 10
319.5077678146
 20
132.4173419651
 30
0.0
  0
LINE
  5
CB
330
1F
100
AcDbEntity
  8
0
  6
Continuous
 62
     7
370
    25
100
AcDbLine
 10
104.840636957
 20
-123.5829443037
 30
0.0
 11
136.340636957
 21
-123.5829443037
 31
0.0
  0
LINE
  5
CC
330
1F
100
AcDbEntity
  8
0
  6
Continuous
 62
     7
370
    25
100
AcDbLine
 10
136.340636957
 20
-60.5829443037
 30
0.0
 11
104.840636957
 21
-60.5829443037
 31
0.0
  0
LINE
  5
CD
330
1F
100
AcDbEntity
  8
0
  6
Continuous
 62
     7
370
    25
100
AcDbLine
 10
215.840636957
 20
-60.5829443037
 30
0.0
 11
136.340636957
 21
-60.5829443037
 31
0.0
  0
LINE
  5
CE
330
1F
100
AcDbEntity
  8
0
  6
Continuous
 62
     7
370
    25
100
AcDbLine
 10
136.340636957
 20
-123.5829443037
 30
0.0
 11
215.840636957
 21
-123.5829443037
 31
0.0
  0
ARC
  5
CF
330
1F
100
AcDbEntity
  8
0
  6
Continuous
 62
     7
370
    25
100
AcDbCircle
 10
104.840636957
 20
-92.0829443037
 30
0.0
 40
31.49999999999997
100
AcDbArc
 50
90.0
 51
270.0
  0
LINE
  5
D0
330
1F
100
AcDbEntity
  8
0
  6
Continuous
 62
     7
370
    25
100
AcDbLine
 10
215.840636957
 20
-60.5829443037
 30
0.0
 11
215.840636957
 21
-123.5829443037
 31
0.0
  0
LINE
  5
D1
330
1F
100
AcDbEntity
  8
0
  6
Continuous
 62
     1
370
    25
100
AcDbLine
 10
136.340636957
 20
-60.5829443037
 30
0.0
 11
136.340636957
 21
-123.5829443037
 31
0.0
  0
INSERT
  5
DD
330
1F
100
AcDbEntity
  8
FORMAT
 62
     7
100
AcDbBlockReference
  2
SW_CENTERMARKSYMBOL_3
 10
104.840636957
 20
-92.0829443037
 30
0.0
  0
LINE
  5
DE
330
1F
100
AcDbEntity
  8
0
  6
Continuous
 62
     7
370
    25
100
AcDbLine
 10
368.1717686353
 20
-8.9993984221
 30
0.0
 11
311.956779531
 21
-41.4516208671
 31
0.0
  0
LINE
  5
DF
330
1F
100
AcDbEntity
  8
0
  6
Continuous
 62
     7
370
    25
100
AcDbLine
 10
343.454219609
 20
-96.0126991971
 30
0.0
 11
399.6692087133
 21
-63.5604767521
 31
0.0
  0
LINE
  5
E0
330
1F
100
AcDbEntity
  8
0
  6
Continuous
 62
     7
370
    25
100
AcDbLine
 10
273.9316359626
 20
-107.3116233677
 30
0.0
 11
273.9316359626
 21
-172.2266179126
 31
0.0
  0
LINE
  5
E1
330
1F
100
AcDbEntity
  8
0
  6
Continuous
 62
     7
370
    25
100
AcDbLine
 10
336.9316359626
 20
-172.2266179126
 30
0.0
 11
336.9316359626
 21
-107.3116233677
 31
0.0
  0
SPLINE
  5
E2
330
1F
100
AcDbEntity
  8
0
  6
Continuous
 62
     7
370
    25
100
AcDbSpline
210
0.0
220
0.0
230
1.0
 70
     8
 71
     3
 72
    36
 73
    32
 74
     0
 42
0.00000001
 43
0.00000001
 40
0.0
 40
0.0
 40
0.0
 40
0.0
 40
0.0232193139996929
 40
0.0588940541911199
 40
0.0946678870461455
 40
0.1306258186871072
 40
0.1666897849654361
 40
0.2027746434499292
 40
0.2388278156585766
 40
0.2748152000293678
 40
0.31071797058634
 40
0.3465307899781581
 40
0.3822594272454828
 40
0.4179183218054744
 40
0.4535283858501954
 40
0.4891151513729545
 40
0.5247072479031317
 40
0.5603331461830963
 40
0.5960157412464665
 40
0.6317861151350471
 40
0.6676740753578834
 40
0.7037067396085633
 40
0.7399067721988425
 40
0.7762901612090278
 40
0.8128634917195918
 40
0.849620803422026
 40
0.8865403475881811
 40
0.9235818736889371
 40
0.9606700792210845
 40
0.9949367553339051
 40
1.0
 40
1.0
 40
1.0
 40
1.0
 10
311.9567795309501
 20
-41.45162086709556
 30
0.0
 10
311.4447851473356
 20
-41.75312608542525
 30
0.0
 10
310.1461496676422
 20
-42.51787153257544
 30
0.0
 10
308.1052651378815
 20
-43.84385481218309
 30
0.0
 10
305.841551589001
 20
-45.4463951276369
 30
0.0
 10
303.6271540055482
 20
-47.15761137892419
 30
0.0
 10
301.464985399176
 20
-48.97092015853097
 30
0.0
 10
299.3618325147994
 20
-50.87963977248594
 30
0.0
 10
297.323039296703
 20
-52.87635981579225
 30
0.0
 10
295.3526584494899
 20
-54.95455170939839
 30
0.0
 10
293.4538292122128
 20
-57.10818772087855
 30
0.0
 10
291.6290396064261
 20
-59.33183479308484
 30
0.0
 10
289.8803124502937
 20
-61.62063617644203
 30
0.0
 10
288.2093887950026
 20
-63.97027135069361
 30
0.0
 10
286.6178810595397
 20
-66.37688817259851
 30
0.0
 10
285.1073966229264
 20
-68.83703018157331
 30
0.0
 10
283.6796610574891
 20
-71.34751766820067
 30
0.0
 10
282.336664354315
 20
-73.90522317744136
 30
0.0
 10
281.0805834388888
 20
-76.50719434453848
 30
0.0
 10
279.9138094973285
 20
-79.15064351527948
 30
0.0
 10
278.838946313786
 20
-81.83303496342701
 30
0.0
 10
277.8589575880207
 20
-84.55177879585457
 30
0.0
 10
276.9772019404584
 20
-87.30409155622395
 30
0.0
 10
276.1974492955266
 20
-90.08681831728704
 30
0.0
 10
275.5238773013018
 20
-92.89621193859875
 30
0.0
 10
274.9609898518668
 20
-95.72768272016225
 30
0.0
 10
274.5135918243632
 20
-98.57552395243988
 30
0.0
 10
274.1862725238529
 20
-101.4323429921413
 30
0.0
 10
273.9894120490787
 20
-104.2174879193135
 30
0.0
 10
273.9339498749749
 20
-106.1763406119395
 30
0.0
 10
273.93189987494
 20
-107.1821391486731
 30
0.0
 10
273.9316359625919
 20
-107.3116233676958
 30
0.0
  0
SPLINE
  5
E3
330
1F
100
AcDbEntity
  8
0
  6
Continuous
 62
     7
370
    25
100
AcDbSpline
210
0.0
220
0.0
230
1.0
 70
     8
 71
     3
 72
    31
 73
    27
 74
     0
 42
0.00000001
 43
0.00000001
 40
0.0
 40
0.0
 40
0.0
 40
0.0
 40
0.0268354710233222
 40
0.0717304019004096
 40
0.1151914544976678
 40
0.1576851191276936
 40
0.1996190995141794
 40
0.2413326027579313
 40
0.28308930789662
 40
0.3250542337913807
 40
0.367312263050898
 40
0.4099218214454515
 40
0.4528774290087718
 40
0.4961238192868632
 40
0.5395729144202709
 40
0.5831079264161204
 40
0.6266149716428501
 40
0.6700363873549546
 40
0.7133693360545024
 40
0.7566828246135053
 40
0.8001305559008798
 40
0.8439080138702203
 40
0.8882924126437126
 40
0.9336708819389848
 40
0.9805057520169587
 40
1.0
 40
1.0
 40
1.0
 40
1.0
 10
336.9318644964903
 20
-107.3272905601379
 30
0.0
 10
336.9317594042019
 20
-107.3295142571359
 30
0.0
 10
336.9314784956955
 20
-107.3354581319141
 30
0.0
 10
336.9399809519942
 20
-107.2122498817346
 30
0.0
 10
336.9701216065798
 20
-106.9726778237412
 30
0.0
 10
337.030318826973
 20
-106.6202224134904
 30
0.0
 10
337.1280644206819
 20
-106.1693178228703
 30
0.0
 10
337.2698774264338
 20
-105.6272883969945
 30
0.0
 10
337.4607266029075
 20
-105.0050809529314
 30
0.0
 10
337.7038206363407
 20
-104.3149399336962
 30
0.0
 10
338.0003372721303
 20
-103.5709873308928
 30
0.0
 10
338.349274953741
 20
-102.7887210339982
 30
0.0
 10
338.7473437162537
 20
-101.9847177512098
 30
0.0
 10
339.1887643029302
 20
-101.1764516013384
 30
0.0
 10
339.6652421214639
 20
-100.3817912004387
 30
0.0
 10
340.1661189544383
 20
-99.61829443138437
 30
0.0
 10
340.6788291825758
 20
-98.90224162303906
 30
0.0
 10
341.18949512037
 20
-98.24780035429772
 30
0.0
 10
341.6835473498961
 20
-97.66644334160557
 30
0.0
 10
342.1461116318313
 20
-97.16676475396832
 30
0.0
 10
342.5625309579038
 20
-96.75436375408152
 30
0.0
 10
342.9178833514707
 20
-96.43229923266102
 30
0.0
 10
343.2007529244896
 20
-96.1989949479077
 30
0.0
 10
343.3906124038489
 20
-96.05637140773646
 30
0.0
 10
343.4829317760867
 20
-95.99570913652074
 30
0.0
 10
343.4708882558599
 20
-96.00305047233523
 30
0.0
 10
343.467348643443
 20
-96.00520810423325
 30
0.0
  0
LWPOLYLINE
  5
E4
330
1F
100
AcDbEntity
  8
0
  6
Continuous
 62
     7
370
    25
100
AcDbPolyline
 90
       93
 70
   128
 43
0.0
 10
361.6466250669
 20
-23.4215098259
 10
361.698550584
 20
-25.2067513307
 10
361.8540850345
 20
-27.0436211414
 10
362.1125032451
 20
-28.9235549231
 10
362.4726003507
 20
-30.8377875565
 10
362.9326974125
 20
-32.7773940057
 10
363.4906492454
 20
-34.7333309298
 10
364.1438544206
 20
-36.6964788481
 10
364.8892673939
 20
-38.6576846587
 10
365.7234127061
 20
-40.607804315
 10
366.6424011864
 20
-42.5377454586
 10
367.6419480866
 20
-44.4385098133
 10
368.7173930575
 20
-46.3012351381
 10
369.8637218781
 20
-48.1172365477
 10
371.0755898345
 20
-49.8780470052
 10
372.3473466386
 20
-51.5754567995
 10
373.6730627734
 20
-53.2015518225
 10
375.046557138
 20
-54.7487504686
 10
376.4614258679
 20
-56.2098389835
 10
377.9110721918
 20
-57.5780050981
 10
379.3887371895
 20
-58.8468697903
 10
380.8875313045
 20
-60.0105170273
 10
382.4004664668
 20
-61.0635213485
 10
383.9204886743
 20
-62.0009731615
 10
385.4405108818
 20
-62.8185016335
 10
386.9534460441
 20
-63.5122950691
 10
388.4522401591
 20
-64.0791186832
 10
389.9299051568
 20
-64.5163296823
 10
391.3795514807
 20
-64.8218895871
 10
392.7944202106
 20
-64.9943737362
 10
394.1679145752
 20
-65.0329779288
 10
395.49363071
 20
-64.9375221743
 10
396.7653875141
 20
-64.7084515317
 10
397.9772554705
 20
-64.3468340339
 10
399.1235842911
 20
-63.8543557086
 10
400.199029262
 20
-63.2333127172
 10
401.1985761622
 20
-62.4866006488
 10
402.1175646425
 20
-61.6177010197
 10
402.9517099547
 20
-60.630665041
 10
403.697122928
 20
-59.5300947302
 10
404.3503281032
 20
-58.3211214541
 10
404.9082799361
 20
-57.0093820042
 10
405.3683769979
 20
-55.6009923153
 10
405.7284741035
 20
-54.1025189503
 10
405.9868923141
 20
-52.5209484837
 10
406.1424267646
 20
-50.8636549272
 10
406.1943522817
 20
-49.1383653483
 10
406.1424267646
 20
-47.3531238435
 10
405.9868923141
 20
-45.5162540328
 10
405.7284741035
 20
-43.6363202512
 10
405.3683769979
 20
-41.7220876177
 10
404.9082799361
 20
-39.7824811686
 10
404.3503281032
 20
-37.8265442445
 10
403.697122928
 20
-35.8633963262
 10
402.9517099547
 20
-33.9021905155
 10
402.1175646425
 20
-31.9520708593
 10
401.1985761622
 20
-30.0221297156
 10
400.199029262
 20
-28.121365361
 10
399.1235842911
 20
-26.2586400361
 10
397.9772554705
 20
-24.4426386265
 10
396.7653875141
 20
-22.681828169
 10
395.49363071
 20
-20.9844183747
 10
394.1679145752
 20
-19.3583233517
 10
392.7944202106
 20
-17.8111247056
 10
391.3795514807
 20
-16.3500361907
 10
389.9299051568
 20
-14.9818700762
 10
388.4522401591
 20
-13.7130053839
 10
386.9534460441
 20
-12.549358147
 10
385.4405108818
 20
-11.4963538258
 10
383.9204886743
 20
-10.5589020127
 10
382.4004664668
 20
-9.7413735408
 10
380.8875313045
 20
-9.0475801052
 10
379.3887371895
 20
-8.4807564911
 10
377.9110721918
 20
-8.0435454919
 10
376.4614258679
 20
-7.7379855871
 10
375.046557138
 20
-7.5655014381
 10
373.6730627734
 20
-7.5268972455
 10
372.3473466386
 20
-7.6223529999
 10
371.0755898345
 20
-7.8514236426
 10
369.8637218781
 20
-8.2130411404
 10
368.7173930575
 20
-8.7055194656
 10
367.6419480866
 20
-9.326562457
 10
366.6424011864
 20
-10.0732745255
 10
365.7234127061
 20
-10.9421741546
 10
364.8892673939
 20
-11.9292101333
 10
364.1438544206
 20
-13.029780444
 10
363.4906492454
 20
-14.2387537201
 10
362.9326974125
 20
-15.5504931701
 10
362.4726003507
 20
-16.958882859
 10
362.1125032451
 20
-18.457356224
 10
361.8540850345
 20
-20.0389266905
 10
361.698550584
 20
-21.696220247
 10
361.6466250669
 20
-23.4215098259
  0
LWPOLYLINE
  5
E5
330
1F
100
AcDbEntity
  8
0
  6
Continuous
 62
     7
370
    25
100
AcDbPolyline
 90
       84
 70
   128
 43
0.0
 10
365.7478443978
 20
-25.7890933502
 10
365.7998900282
 20
-24.2320619436
 10
365.9557288066
 20
-22.7440396777
 10
366.2144681026
 20
-21.3335498092
 10
366.5746258811
 20
-20.0086714963
 10
367.0341391908
 20
-18.7769935221
 10
367.5903759811
 20
-17.6455708264
 10
368.2401501781
 20
-16.6208840961
 10
368.979739934
 20
-15.7088026438
 10
369.8049089456
 20
-14.9145507895
 10
370.7109307197
 20
-14.2426779361
 10
371.6926156454
 20
-13.6970325102
 10
372.7443407206
 20
-13.2807399195
 10
373.8600817591
 20
-12.9961846502
 10
375.0334478973
 20
-12.8449966092
 10
376.2577182003
 20
-12.8280417879
 10
377.5258801587
 20
-12.9454173019
 10
378.8306698555
 20
-13.196450835
 10
380.1646135736
 20
-13.5797044898
 10
381.5200706041
 20
-14.092983024
 10
382.889277012
 20
-14.7333464247
 10
384.2643901069
 20
-15.4971267484
 10
385.6375333655
 20
-16.3799491304
 10
387.0008415476
 20
-17.3767568442
 10
388.3465057475
 20
-18.4818402655
 10
389.6668181223
 20
-19.6888695764
 10
390.9542160425
 20
-20.9909310224
 10
392.2013254092
 20
-22.3805665135
 10
393.4010028931
 20
-23.8498163434
 10
394.54637685
 20
-25.390264782
 10
395.6308866818
 20
-26.9930882804
 10
396.6483204142
 20
-28.6491060105
 10
397.5928502791
 20
-30.3488324529
 10
398.4590660948
 20
-32.0825317284
 10
399.2420062557
 20
-33.8402733645
 10
399.9371861514
 20
-35.6119891764
 10
400.5406238544
 20
-37.3875309362
 10
401.0488629282
 20
-39.1567285017
 10
401.4589922254
 20
-40.9094480693
 10
401.7686625626
 20
-42.6356502201
 10
401.976100176
 20
-44.3254474246
 10
402.0801168819
 20
-45.9691606773
 10
402.0801168819
 20
-47.5573749375
 10
401.976100176
 20
-49.0809930579
 10
401.7686625626
 20
-50.5312878919
 10
401.4589922254
 20
-51.8999522818
 10
401.0488629282
 20
-53.1791466422
 10
400.5406238544
 20
-54.3615438634
 10
399.9371861514
 20
-55.4403712814
 10
399.2420062557
 20
-56.4094494703
 10
398.4590660948
 20
-57.263227638
 10
397.5928502791
 20
-57.9968154206
 10
396.6483204142
 20
-58.6060108936
 10
395.6308866818
 20
-59.0873246406
 10
394.54637685
 20
-59.4379997399
 10
393.4010028931
 20
-59.6560275564
 10
392.2013254092
 20
-59.7401592465
 10
390.9542160425
 20
-59.6899129114
 10
389.6668181223
 20
-59.5055763577
 10
388.3465057475
 20
-59.1882054484
 10
387.0008415476
 20
-58.7396180554
 10
385.6375333655
 20
-58.1623836465
 10
384.2643901069
 20
-57.4598085683
 10
382.889277012
 20
-56.6359171072
 10
381.5200706041
 20
-55.6954284387
 10
380.1646135736
 20
-54.643729597
 10
378.8306698555
 20
-53.4868446176
 10
377.5258801587
 20
-52.231400033
 10
376.2577182003
 20
-50.884586916
 10
375.0334478973
 20
-49.4541196903
 10
373.8600817591
 20
-47.9481919426
 10
372.7443407206
 20
-46.3754294905
 10
371.6926156454
 20
-44.7448409751
 10
370.7109307197
 20
-43.0657662597
 10
369.8049089456
 20
-41.3478229321
 10
368.979739934
 20
-39.6008512162
 10
368.2401501781
 20
-37.8348576078
 10
367.5903759811
 20
-36.0599575583
 10
367.0341391908
 20
-34.2863175345
 10
366.5746258811
 20
-32.5240967859
 10
366.2144681026
 20
-30.7833891532
 10
365.9557288066
 20
-29.0741652522
 10
365.7998900282
 20
-27.4062153625
 10
365.7478443978
 20
-25.7890933502
  0
LWPOLYLINE
  5
E6
330
1F
100
AcDbEntity
  8
0
  6
Continuous
 62
     7
370
    25
100
AcDbPolyline
 90
       93
 70
   128
 43
0.0
 10
283.1577723552
 20
-159.3681901514
 10
284.7297200798
 20
-158.5206759719
 10
286.3981896927
 20
-157.7370652206
 10
288.1554020182
 20
-157.0210114526
 10
289.9931641215
 20
-156.3758532411
 10
291.9029075071
 20
-155.8045986115
 10
293.87572807
 20
-155.3099110167
 10
295.9024276098
 20
-154.8940969184
 10
297.9735567179
 20
-154.5590950341
 10
300.0794588342
 20
-154.306467297
 10
302.2103152709
 20
-154.1373915745
 10
304.3561909917
 20
-154.0526561754
 10
306.5070809334
 20
-154.0526561754
 10
308.6529566543
 20
-154.1373915745
 10
310.783813091
 20
-154.306467297
 10
312.8897152073
 20
-154.5590950341
 10
314.9608443153
 20
-154.8940969184
 10
316.9875438552
 20
-155.3099110167
 10
318.960364418
 20
-155.8045986115
 10
320.8701078037
 20
-156.3758532411
 10
322.7078699069
 20
-157.0210114526
 10
324.4650822325
 20
-157.7370652206
 10
326.1335518454
 20
-158.5206759719
 10
327.70549957
 20
-159.3681901514
 10
329.1735962604
 20
-160.2756562569
 10
330.5309969722
 20
-161.2388432624
 10
331.7713728766
 20
-162.2532603454
 10
332.8889407686
 20
-163.3141778254
 10
333.8784900308
 20
-164.4166492151
 10
334.7354069277
 20
-165.5555342842
 10
335.4556961172
 20
-166.7255230247
 10
336.0359992786
 20
-167.9211604089
 10
336.4736107707
 20
-169.1368718235
 10
336.7664902466
 20
-170.3669890606
 10
336.9132721671
 20
-171.6057767459
 10
336.9132721671
 20
-172.8474590793
 10
336.7664902466
 20
-174.0862467646
 10
336.4736107707
 20
-175.3163640017
 10
336.0359992786
 20
-176.5320754163
 10
335.4556961172
 20
-177.7277128006
 10
334.7354069277
 20
-178.897701541
 10
333.8784900308
 20
-180.0365866101
 10
332.8889407686
 20
-181.1390579999
 10
331.7713728766
 20
-182.1999754798
 10
330.5309969722
 20
-183.2143925629
 10
329.1735962604
 20
-184.1775795684
 10
327.70549957
 20
-185.0850456738
 10
326.1335518454
 20
-185.9325598534
 10
324.4650822325
 20
-186.7161706047
 10
322.7078699069
 20
-187.4322243726
 10
320.8701078037
 20
-188.0773825841
 10
318.960364418
 20
-188.6486372137
 10
316.9875438552
 20
-189.1433248086
 10
314.9608443153
 20
-189.5591389068
 10
312.8897152073
 20
-189.8941407912
 10
310.783813091
 20
-190.1467685282
 10
308.6529566543
 20
-190.3158442508
 10
306.5070809334
 20
-190.4005796498
 10
304.3561909917
 20
-190.4005796498
 10
302.2103152709
 20
-190.3158442508
 10
300.0794588342
 20
-190.1467685282
 10
297.9735567179
 20
-189.8941407912
 10
295.9024276098
 20
-189.5591389068
 10
293.87572807
 20
-189.1433248086
 10
291.9029075071
 20
-188.6486372137
 10
289.9931641215
 20
-188.0773825841
 10
288.1554020182
 20
-187.4322243726
 10
286.3981896927
 20
-186.7161706047
 10
284.7297200798
 20
-185.9325598534
 10
283.1577723552
 20
-185.0850456738
 10
281.6896756648
 20
-184.1775795684
 10
280.332274953
 20
-183.2143925629
 10
279.0918990486
 20
-182.1999754798
 10
277.9743311566
 20
-181.1390579999
 10
276.9847818944
 20
-180.0365866101
 10
276.1278649975
 20
-178.897701541
 10
275.4075758079
 20
-177.7277128006
 10
274.8272726466
 20
-176.5320754163
 10
274.3896611545
 20
-175.3163640017
 10
274.0967816786
 20
-174.0862467646
 10
273.9499997581
 20
-172.8474590793
 10
273.9499997581
 20
-171.6057767459
 10
274.0967816786
 20
-170.3669890606
 10
274.3896611545
 20
-169.1368718235
 10
274.8272726466
 20
-167.9211604089
 10
275.4075758079
 20
-166.7255230247
 10
276.1278649975
 20
-165.5555342842
 10
276.9847818944
 20
-164.4166492151
 10
277.9743311566
 20
-163.3141778254
 10
279.0918990486
 20
-162.2532603454
 10
280.332274953
 20
-161.2388432624
 10
281.6896756648
 20
-160.2756562569
 10
283.1577723552
 20
-159.3681901514
  0
LWPOLYLINE
  5
E7
330
1F
100
AcDbEntity
  8
0
  6
Continuous
 62
     7
370
    25
100
AcDbPolyline
 90
       84
 70
   128
 43
0.0
 10
287.2589916861
 20
-161.7357736757
 10
285.9366630204
 20
-162.5592283715
 10
284.7259997943
 20
-163.4380569991
 10
283.6339365771
 20
-164.3672257077
 10
282.6667286079
 20
-165.3414123031
 10
281.8299159665
 20
-166.3550367328
 10
281.1282918399
 20
-167.4022930477
 10
280.5658750676
 20
-168.4771826586
 10
280.1458871218
 20
-169.573548695
 10
279.8707336555
 20
-170.6851112717
 10
279.7419907229
 20
-171.8055034588
 10
279.7603957517
 20
-172.9283077513
 10
279.9258433197
 20
-174.047092828
 10
280.2373857582
 20
-175.1554503893
 10
280.6932385803
 20
-176.2470318634
 10
281.2907907023
 20
-177.3155847704
 10
282.0266193998
 20
-178.3549885361
 10
282.8965099126
 20
-179.3592895499
 10
283.8954795866
 20
-180.3227352665
 10
285.0178064141
 20
-181.239807156
 10
286.2570618085
 20
-182.1052523138
 10
287.6061474273
 20
-182.9141135484
 10
289.0573358302
 20
-183.6617577758
 10
290.6023147413
 20
-184.3439025576
 10
292.2322346615
 20
-184.9566406303
 10
293.937759557
 20
-185.4964622857
 10
295.7091203357
 20
-185.9602754742
 10
297.5361708034
 20
-186.3454235159
 10
299.4084457805
 20
-186.6497003178
 10
301.3152210456
 20
-186.8713630097
 10
303.2455747625
 20
-187.009141928
 10
305.18845004
 20
-187.0622478874
 10
307.1327182645
 20
-187.0303767018
 10
309.0672428435
 20
-186.9137109264
 10
310.9809429956
 20
-186.7129188124
 10
312.8628572196
 20
-186.4291504786
 10
314.7022060812
 20
-186.0640313245
 10
316.4884539566
 20
-185.6196527195
 10
318.2113693799
 20
-185.098560024
 10
319.8610836475
 20
-184.5037380097
 10
321.4281473455
 20
-183.8385937633
 10
322.9035844749
 20
-183.1069371708
 10
324.2789438654
 20
-182.3129590949
 10
325.5463475831
 20
-181.4612073702
 10
326.6985360543
 20
-180.5565607533
 10
327.7289096476
 20
-179.6042009781
 10
328.6315664764
 20
-178.6095830753
 10
329.4013362043
 20
-177.5784041261
 10
330.0338096598
 20
-176.5165706301
 10
330.5253640924
 20
-175.4301646734
 10
330.8731839227
 20
-174.325409091
 10
331.0752768703
 20
-173.2086318227
 10
331.130485365
 20
-172.0862296678
 10
331.0384931776
 20
-170.9646316439
 10
330.799827231
 20
-169.8502621632
 10
330.4158545822
 20
-168.749504233
 10
329.8887745916
 20
-167.668662895
 10
329.2216063258
 20
-166.6139291106
 10
328.4181712642
 20
-165.5913442994
 10
327.48307141
 20
-164.6067657346
 10
326.4216629306
 20
-163.665832993
 10
325.2400254775
 20
-162.7739356522
 10
323.9449273631
 20
-161.9361824193
 10
322.5437867921
 20
-161.157371869
 10
321.0446293708
 20
-160.4419649576
 10
319.4560421372
 20
-159.7940594712
 10
317.787124375
 20
-159.2173665536
 10
316.0474354941
 20
-158.7151894497
 10
314.2469402749
 20
-158.2904045845
 10
312.3959517909
 20
-157.9454450871
 10
310.5050723365
 20
-157.6822868544
 10
308.585132698
 20
-157.5024372329
 10
306.6471301157
 20
-157.4069263849
 10
304.7021652931
 20
-157.3963013879
 10
302.7613788123
 20
-157.4706231009
 10
300.8358873228
 20
-157.6294658159
 10
298.9367198652
 20
-157.8719196963
 10
297.0747546989
 20
-158.196595988
 10
295.2606569916
 20
-158.6016349748
 10
293.5048177308
 20
-159.08471663
 10
291.8172942048
 20
-159.6430739056
 10
290.2077523954
 20
-160.2735085817
 10
288.6854116125
 20
-160.9724095857
 10
287.2589916861
 20
-161.7357736757
  0
LWPOLYLINE
  5
E8
330
1F
100
AcDbEntity
  8
0
  6
Continuous
 62
     1
370
    25
100
AcDbPolyline
 90
       13
 70
   128
 43
0.0
 10
327.70549957
 20
-94.4531956065
 10
329.2255217775
 20
-95.2707240784
 10
330.7384569398
 20
-95.964517514
 10
332.2372510548
 20
-96.5313411281
 10
333.7149160524
 20
-96.9685521273
 10
335.1645623764
 20
-97.2741120321
 10
336.5794311062
 20
-97.4465961811
 10
337.9529254709
 20
-97.4852003737
 10
339.2786416056
 20
-97.3897446193
 10
340.5503984098
 20
-97.1606739766
 10
341.7622663661
 20
-96.7990564788
 10
342.9085951868
 20
-96.3065781536
 10
343.454219609
 20
-96.0126991971
  0
LWPOLYLINE
  5
E9
330
1F
100
AcDbEntity
  8
0
  6
Continuous
 62
     1
370
    25
100
AcDbPolyline
 90
       36
 70
   128
 43
0.0
 10
311.956779531
 20
-41.4516208671
 10
311.4269589823
 20
-41.778784902
 10
310.4274120821
 20
-42.5254969704
 10
309.5084236017
 20
-43.3943965996
 10
308.6742782896
 20
-44.3814325782
 10
307.9288653163
 20
-45.482002889
 10
307.2756601411
 20
-46.6909761651
 10
306.7177083081
 20
-48.002715615
 10
306.2576112464
 20
-49.4111053039
 10
305.8975141408
 20
-50.9095786689
 10
305.6390959302
 20
-52.4911491355
 10
305.4835614797
 20
-54.148442692
 10
305.4316359626
 20
-55.8737322709
 10
305.4835614797
 20
-57.6589737757
 10
305.6390959302
 20
-59.4958435864
 10
305.8975141408
 20
-61.375777368
 10
306.2576112464
 20
-63.2900100015
 10
306.7177083081
 20
-65.2296164506
 10
307.2756601411
 20
-67.1855533747
 10
307.9288653163
 20
-69.148701293
 10
308.6742782896
 20
-71.1099071037
 10
309.5084236017
 20
-73.0600267599
 10
310.4274120821
 20
-74.9899679036
 10
311.4269589823
 20
-76.8907322583
 10
312.5024039531
 20
-78.7534575831
 10
313.6487327738
 20
-80.5694589927
 10
314.8606007301
 20
-82.3302694502
 10
316.1323575343
 20
-84.0276792445
 10
317.458073669
 20
-85.6537742675
 10
318.8315680337
 20
-87.2009729136
 10
320.2464367636
 20
-88.6620614285
 10
321.6960830875
 20
-90.030227543
 10
323.1737480851
 20
-91.2990922353
 10
324.6725422001
 20
-92.4627394723
 10
326.1854773624
 20
-93.5157437934
 10
327.70549957
 20
-94.4531956065
  0
LWPOLYLINE
  5
EA
330
1F
100
AcDbEntity
  8
0
  6
Continuous
 62
     1
370
    25
100
AcDbPolyline
 90
       13
 70
   128
 43
0.0
 10
327.70549957
 20
-94.4531956065
 10
329.1735962604
 20
-95.3606617119
 10
330.5309969722
 20
-96.3238487174
 10
331.7713728766
 20
-97.3382658005
 10
332.8889407686
 20
-98.3991832804
 10
333.8784900308
 20
-99.5016546702
 10
334.7354069277
 20
-100.6405397393
 10
335.4556961172
 20
-101.8105284797
 10
336.0359992786
 20
-103.006165864
 10
336.4736107707
 20
-104.2218772786
 10
336.7664902466
 20
-105.4519945157
 10
336.9132721671
 20
-106.690782201
 10
336.9316359626
 20
-107.3116233677
  0
LWPOLYLINE
  5
EB
330
1F
100
AcDbEntity
  8
0
  6
Continuous
 62
     1
370
    25
100
AcDbPolyline
 90
       36
 70
   128
 43
0.0
 10
273.9316359626
 20
-107.3116233677
 10
273.9499997581
 20
-106.690782201
 10
274.0967816786
 20
-105.4519945157
 10
274.3896611545
 20
-104.2218772786
 10
274.8272726466
 20
-103.006165864
 10
275.4075758079
 20
-101.8105284797
 10
276.1278649975
 20
-100.6405397393
 10
276.9847818944
 20
-99.5016546702
 10
277.9743311566
 20
-98.3991832804
 10
279.0918990486
 20
-97.3382658005
 10
280.332274953
 20
-96.3238487174
 10
281.6896756648
 20
-95.3606617119
 10
283.1577723552
 20
-94.4531956065
 10
284.7297200798
 20
-93.6056814269
 10
286.3981896927
 20
-92.8220706757
 10
288.1554020182
 20
-92.1060169077
 10
289.9931641215
 20
-91.4608586962
 10
291.9029075071
 20
-90.8896040666
 10
293.87572807
 20
-90.3949164718
 10
295.9024276098
 20
-89.9791023735
 10
297.9735567179
 20
-89.6441004891
 10
300.0794588342
 20
-89.3914727521
 10
302.2103152709
 20
-89.2223970295
 10
304.3561909917
 20
-89.1376616305
 10
306.5070809335
 20
-89.1376616305
 10
308.6529566543
 20
-89.2223970295
 10
310.783813091
 20
-89.3914727521
 10
312.8897152073
 20
-89.6441004891
 10
314.9608443153
 20
-89.9791023735
 10
316.9875438552
 20
-90.3949164718
 10
318.960364418
 20
-90.8896040666
 10
320.8701078037
 20
-91.4608586962
 10
322.7078699069
 20
-92.1060169077
 10
324.4650822325
 20
-92.8220706757
 10
326.1335518454
 20
-93.6056814269
 10
327.70549957
 20
-94.4531956065
  0
ENDSEC
  0
SECTION
  2
OBJECTS
  0
DICTIONARY
  5
C
330
0
100
AcDbDictionary
281
     1
  3
ACAD_GROUP
350
D
  3
ACAD_LAYOUT
350
1A
  3
ACAD_MLINESTYLE
350
17
  3
ACAD_PLOTSETTINGS
350
19
  3
ACAD_PLOTSTYLENAME
350
E
  3
ACAD_SCALELIST
350
47
  3
DWGPROPS
350
EC
  0
DICTIONARY
  5
D
102
{ACAD_REACTORS
330
C
102
}
330
C
100
AcDbDictionary
281
     1
  0
DICTIONARY
  5
1A
102
{ACAD_REACTORS
330
C
102
}
330
C
100
AcDbDictionary
281
     1
  3
Layout1
350
1E
  3
Layout2
350
26
  3
Model
350
22
  0
DICTIONARY
  5
17
102
{ACAD_REACTORS
330
C
102
}
330
C
100
AcDbDictionary
281
     1
  3
Standard
350
18
  0
DICTIONARY
  5
19
102
{ACAD_REACTORS
330
C
102
}
330
C
100
AcDbDictionary
281
     1
  0
ACDBDICTIONARYWDFLT
  5
E
102
{ACAD_REACTORS
330
C
102
}
330
C
100
AcDbDictionary
281
     1
  3
Normal
350
F
100
AcDbDictionaryWithDefault
340
F
  0
DICTIONARY
  5
47
102
{ACAD_REACTORS
330
C
102
}
330
C
100
AcDbDictionary
281
     1
  3
A0
350
48
  3
A1
350
49
  3
A2
350
4A
  3
A3
350
4B
  3
A4
350
4C
  3
A5
350
4D
  3
A6
350
4E
  3
A7
350
4F
  3
A8
350
50
  3
A9
350
51
  3
B0
350
52
  3
B1
350
53
  3
B2
350
54
  3
B3
350
55
  3
B4
350
56
  3
B5
350
57
  3
B6
350
58
  3
B7
350
59
  3
B8
350
5A
  3
B9
350
5B
  3
C0
350
5C
  3
C1
350
5D
  3
C2
350
5E
  3
C3
350
5F
  3
C4
350
60
  3
C5
350
61
  3
C6
350
62
  3
C7
350
63
  3
C8
350
64
  3
C9
350
65
  3
D0
350
66
  3
D1
350
67
  3
D2
350
68
  0
XRECORD
  5
EC
102
{ACAD_REACTORS
330
C
102
}
330
C
100
AcDbXrecord
280
     1
  1
DWGPROPS COOKIE
  2

  3

  4

  6

  7

  8
b.kav
  9

300
=
301
=
302
=
303
=
304
=
305
=
306
=
307
=
308
=
309
=
 40
0.0
 41
2459935.574317951
 42
2459935.574318125
  1

 90
        0
  0
LAYOUT
  5
1E
102
{ACAD_REACTORS
330
1A
102
}
330
1A
100
AcDbPlotSettings
  1

  2
none_device
  4

  6

 40
0.0
 41
0.0
 42
0.0
 43
0.0
 44
0.0
 45
0.0
 46
0.0
 47
0.0
 48
0.0
 49
0.0
140
0.0
141
0.0
142
1.0
143
1.0
 70
   688
 72
     1
 73
     0
 74
     5
  7

 75
    16
147
1.0
148
0.0
149
0.0
100
AcDbLayout
  1
Layout1
 70
     1
 71
     1
 10
0.0
 20
0.0
 11
420.0
 21
297.0
 12
0.0
 22
0.0
 32
0.0
 14
1.0000000000E+20
 24
1.0000000000E+20
 34
1.0000000000E+20
 15
-1.0000000000E+20
 25
-1.0000000000E+20
 35
-1.0000000000E+20
146
0.0
 13
0.0
 23
0.0
 33
0.0
 16
1.0
 26
0.0
 36
0.0
 17
0.0
 27
1.0
 37
0.0
 76
     0
330
1B
  0
LAYOUT
  5
26
102
{ACAD_REACTORS
330
1A
102
}
330
1A
100
AcDbPlotSettings
  1

  2
none_device
  4

  6

 40
0.0
 41
0.0
 42
0.0
 43
0.0
 44
0.0
 45
0.0
 46
0.0
 47
0.0
 48
0.0
 49
0.0
140
0.0
141
0.0
142
1.0
143
1.0
 70
   688
 72
     1
 73
     0
 74
     5
  7

 75
    16
147
1.0
148
0.0
149
0.0
100
AcDbLayout
  1
Layout2
 70
     1
 71
     2
 10
0.0
 20
0.0
 11
0.0
 21
0.0
 12
0.0
 22
0.0
 32
0.0
 14
0.0
 24
0.0
 34
0.0
 15
0.0
 25
0.0
 35
0.0
146
0.0
 13
0.0
 23
0.0
 33
0.0
 16
1.0
 26
0.0
 36
0.0
 17
0.0
 27
1.0
 37
0.0
 76
     0
330
23
  0
LAYOUT
  5
22
102
{ACAD_REACTORS
330
1A
102
}
330
1A
100
AcDbPlotSettings
  1

  2
none_device
  4
Letter_(8.50_x_11.00_Inches)
  6

 40
6.35
 41
6.35
 42
6.35000508
 43
6.35000508
 44
215.9
 45
279.4
 46
0.0
 47
0.0
 48
0.0
 49
0.0
140
0.0
141
0.0
142
1.0
143
1.0
 70
  1712
 72
     1
 73
     0
 74
     0
  7

 75
     0
147
1.0
148
0.0
149
0.0
100
AcDbLayout
  1
Model
 70
     1
 71
     0
 10
0.0
 20
0.0
 11
279.4
 21
215.9
 12
0.0
 22
0.0
 32
0.0
 14
0.0
 24
0.0
 34
0.0
 15
279.4
 25
215.9
 35
0.0
146
0.0
 13
0.0
 23
0.0
 33
0.0
 16
1.0
 26
0.0
 36
0.0
 17
0.0
 27
1.0
 37
0.0
 76
     0
330
1F
331
29
  0
MLINESTYLE
  5
18
102
{ACAD_REACTORS
330
17
102
}
330
17
100
AcDbMlineStyle
  2
Standard
 70
     0
  3

 62
   256
 51
90.0
 52
90.0
 71
     2
 49
0.5
 62
   256
  6
BYLAYER
 49
-0.5
 62
   256
  6
BYLAYER
  0
ACDBPLACEHOLDER
  5
F
102
{ACAD_REACTORS
330
E
102
}
330
E
  0
SCALE
  5
48
102
{ACAD_REACTORS
330
47
102
}
330
47
100
AcDbScale
 70
     0
300
1:1
140
1.0
141
1.0
290
     1
  0
SCALE
  5
49
102
{ACAD_REACTORS
330
47
102
}
330
47
100
AcDbScale
 70
     0
300
1:2
140
1.0
141
2.0
290
     0
  0
SCALE
  5
4A
102
{ACAD_REACTORS
330
47
102
}
330
47
100
AcDbScale
 70
     0
300
1:4
140
1.0
141
4.0
290
     0
  0
SCALE
  5
4B
102
{ACAD_REACTORS
330
47
102
}
330
47
100
AcDbScale
 70
     0
300
1:5
140
1.0
141
5.0
290
     0
  0
SCALE
  5
4C
102
{ACAD_REACTORS
330
47
102
}
330
47
100
AcDbScale
 70
     0
300
1:8
140
1.0
141
8.0
290
     0
  0
SCALE
  5
4D
102
{ACAD_REACTORS
330
47
102
}
330
47
100
AcDbScale
 70
     0
300
1:10
140
1.0
141
10.0
290
     0
  0
SCALE
  5
4E
102
{ACAD_REACTORS
330
47
102
}
330
47
100
AcDbScale
 70
     0
300
1:16
140
1.0
141
16.0
290
     0
  0
SCALE
  5
4F
102
{ACAD_REACTORS
330
47
102
}
330
47
100
AcDbScale
 70
     0
300
1:20
140
1.0
141
20.0
290
     0
  0
SCALE
  5
50
102
{ACAD_REACTORS
330
47
102
}
330
47
100
AcDbScale
 70
     0
300
1:30
140
1.0
141
30.0
290
     0
  0
SCALE
  5
51
102
{ACAD_REACTORS
330
47
102
}
330
47
100
AcDbScale
 70
     0
300
1:40
140
1.0
141
40.0
290
     0
  0
SCALE
  5
52
102
{ACAD_REACTORS
330
47
102
}
330
47
100
AcDbScale
 70
     0
300
1:50
140
1.0
141
50.0
290
     0
  0
SCALE
  5
53
102
{ACAD_REACTORS
330
47
102
}
330
47
100
AcDbScale
 70
     0
300
1:100
140
1.0
141
100.0
290
     0
  0
SCALE
  5
54
102
{ACAD_REACTORS
330
47
102
}
330
47
100
AcDbScale
 70
     0
300
2:1
140
2.0
141
1.0
290
     0
  0
SCALE
  5
55
102
{ACAD_REACTORS
330
47
102
}
330
47
100
AcDbScale
 70
     0
300
4:1
140
4.0
141
1.0
290
     0
  0
SCALE
  5
56
102
{ACAD_REACTORS
330
47
102
}
330
47
100
AcDbScale
 70
     0
300
8:1
140
8.0
141
1.0
290
     0
  0
SCALE
  5
57
102
{ACAD_REACTORS
330
47
102
}
330
47
100
AcDbScale
 70
     0
300
10:1
140
10.0
141
1.0
290
     0
  0
SCALE
  5
58
102
{ACAD_REACTORS
330
47
102
}
330
47
100
AcDbScale
 70
     0
300
100:1
140
100.0
141
1.0
290
     0
  0
SCALE
  5
59
102
{ACAD_REACTORS
330
47
102
}
330
47
100
AcDbScale
 70
     0
300
1/128" = 1'-0"
140
0.0078125
141
12.0
290
     0
  0
SCALE
  5
5A
102
{ACAD_REACTORS
330
47
102
}
330
47
100
AcDbScale
 70
     0
300
1/64" = 1'-0"
140
0.015625
141
12.0
290
     0
  0
SCALE
  5
5B
102
{ACAD_REACTORS
330
47
102
}
330
47
100
AcDbScale
 70
     0
300
1/32" = 1'-0"
140
0.03125
141
12.0
290
     0
  0
SCALE
  5
5C
102
{ACAD_REACTORS
330
47
102
}
330
47
100
AcDbScale
 70
     0
300
1/16" = 1'-0"
140
0.0625
141
12.0
290
     0
  0
SCALE
  5
5D
102
{ACAD_REACTORS
330
47
102
}
330
47
100
AcDbScale
 70
     0
300
3/32" = 1'-0"
140
0.09375
141
12.0
290
     0
  0
SCALE
  5
5E
102
{ACAD_REACTORS
330
47
102
}
330
47
100
AcDbScale
 70
     0
300
1/8" = 1'-0"
140
0.125
141
12.0
290
     0
  0
SCALE
  5
5F
102
{ACAD_REACTORS
330
47
102
}
330
47
100
AcDbScale
 70
     0
300
3/16" = 1'-0"
140
0.1875
141
12.0
290
     0
  0
SCALE
  5
60
102
{ACAD_REACTORS
330
47
102
}
330
47
100
AcDbScale
 70
     0
300
1/4" = 1'-0"
140
0.25
141
12.0
290
     0
  0
SCALE
  5
61
102
{ACAD_REACTORS
330
47
102
}
330
47
100
AcDbScale
 70
     0
300
3/8" = 1'-0"
140
0.375
141
12.0
290
     0
  0
SCALE
  5
62
102
{ACAD_REACTORS
330
47
102
}
330
47
100
AcDbScale
 70
     0
300
1/2" = 1'-0"
140
0.5
141
12.0
290
     0
  0
SCALE
  5
63
102
{ACAD_REACTORS
330
47
102
}
330
47
100
AcDbScale
 70
     0
300
3/4" = 1'-0"
140
0.75
141
12.0
290
     0
  0
SCALE
  5
64
102
{ACAD_REACTORS
330
47
102
}
330
47
100
AcDbScale
 70
     0
300
1" = 1'-0"
140
1.0
141
12.0
290
     0
  0
SCALE
  5
65
102
{ACAD_REACTORS
330
47
102
}
330
47
100
AcDbScale
 70
     0
300
1-1/2" = 1'-0"
140
1.5
141
12.0
290
     0
  0
SCALE
  5
66
102
{ACAD_REACTORS
330
47
102
}
330
47
100
AcDbScale
 70
     0
300
3" = 1'-0"
140
3.0
141
12.0
290
     0
  0
SCALE
  5
67
102
{ACAD_REACTORS
330
47
102
}
330
47
100
AcDbScale
 70
     0
300
6" = 1'-0"
140
6.0
141
12.0
290
     0
  0
SCALE
  5
68
102
{ACAD_REACTORS
330
47
102
}
330
47
100
AcDbScale
 70
     0
300
1'-0" = 1'-0"
140
12.0
141
12.0
290
     0
  0
ENDSEC
  0
EOF
